  0
SECTION
  2
HEADER
  9
$ACADVER
  1
AC1014
  9
$HANDSEED
  5
FFFF
  9
$INSUNITS
 70
     1
  9
$MEASUREMENT
 70
     1
  0
ENDSEC
  0
SECTION
  2
TABLES
  0
TABLE
  2
VPORT
  5
8
330
0
100
AcDbSymbolTable
 70
     4
  0
VPORT
  5
2E
330
8
100
AcDbSymbolTableRecord
100
AcDbViewportTableRecord
  2
*ACTIVE
 70
     0
 10
0.0
 20
0.0
 11
1.0
 21
1.0
 12
210.0
 22
148.5
 13
0.0
 23
0.0
 14
10.0
 24
10.0
 15
10.0
 25
10.0
 16
0.0
 26
0.0
 36
1.0
 17
0.0
 27
0.0
 37
0.0
 40
341.0
 41
1.24
 42
50.0
 43
0.0
 44
0.0
 50
0.0
 51
0.0
 71
     0
 72
   100
 73
     1
 74
     3
 75
     0
 76
     0
 77
     0
 78
     0
  0
ENDTAB
  0
TABLE
  2
LTYPE
  5
5
330
0
100
AcDbSymbolTable
 70
     1
  0
LTYPE
  5
14
330
5
100
AcDbSymbolTableRecord
100
AcDbLinetypeTableRecord
  2
BYBLOCK
 70
     0
  3

 72
    65
 73
     0
 40
0.0
  0
LTYPE
  5
15
330
5
100
AcDbSymbolTableRecord
100
AcDbLinetypeTableRecord
  2
BYLAYER
 70
     0
  3

 72
    65
 73
     0
 40
0.0
  0
LTYPE
  5
16
330
5
100
AcDbSymbolTableRecord
100
AcDbLinetypeTableRecord
  2
CONTINUOUS
 70
     0
  3
Solid line
 72
    65
 73
     0
 40
0.0
  0
ENDTAB
  0
TABLE
  2
LAYER
  5
2
100
AcDbSymbolTable
 70
1
  0
LAYER
  5
50
100
AcDbSymbolTableRecord
100
AcDbLayerTableRecord
  2
0
 70
0
  6
CONTINUOUS
  0
ENDTAB
  0
TABLE
  2
STYLE
  5
3
330
0
100
AcDbSymbolTable
 70
     1
  0
STYLE
  5
11
330
3
100
AcDbSymbolTableRecord
100
AcDbTextStyleTableRecord
  2
STANDARD
 70
     0
 40
0.0
 41
1.0
 50
0.0
 71
     0
 42
2.5
  3
txt
  4

  0
ENDTAB
  0
TABLE
  2
VIEW
  5
6
330
0
100
AcDbSymbolTable
 70
     0
  0
ENDTAB
  0
TABLE
  2
UCS
  5
7
330
0
100
AcDbSymbolTable
 70
     0
  0
ENDTAB
  0
TABLE
  2
APPID
  5
9
330
0
100
AcDbSymbolTable
 70
     2
  0
APPID
  5
12
330
9
100
AcDbSymbolTableRecord
100
AcDbRegAppTableRecord
  2
ACAD
 70
     0
  0
ENDTAB
  0
TABLE
  2
DIMSTYLE
  5
A
330
0
100
AcDbSymbolTable
 70
     1
  0
DIMSTYLE
105
27
330
A
100
AcDbSymbolTableRecord
100
AcDbDimStyleTableRecord
  2
ISO-25
 70
     0
  3

  4

  5

  6

  7

 40
1.0
 41
2.5
 42
0.625
 43
3.75
 44
1.25
 45
0.0
 46
0.0
 47
0.0
 48
0.0
140
2.5
141
2.5
142
0.0
143
0.03937007874016
144
1.0
145
0.0
146
1.0
147
0.625
 71
     0
 72
     0
 73
     0
 74
     0
 75
     0
 76
     0
 77
     1
 78
     8
170
     0
171
     3
172
     1
173
     0
174
     0
175
     0
176
     0
177
     0
178
     0
270
     2
271
     2
272
     2
273
     2
274
     3
340
11
275
     0
280
     0
281
     0
282
     0
283
     0
284
     8
285
     0
286
     0
287
     3
288
     0
  0
ENDTAB
  0
TABLE
  2
BLOCK_RECORD
  5
1
330
0
100
AcDbSymbolTable
 70
     1
  0
BLOCK_RECORD
  5
1F
330
1
100
AcDbSymbolTableRecord
100
AcDbBlockTableRecord
  2
*MODEL_SPACE
  0
BLOCK_RECORD
  5
1B
330
1
100
AcDbSymbolTableRecord
100
AcDbBlockTableRecord
  2
*PAPER_SPACE
  0
ENDTAB
  0
ENDSEC
  0
SECTION
  2
BLOCKS
  0
BLOCK
  5
20
330
1F
100
AcDbEntity
  8
0
100
AcDbBlockBegin
  2
*MODEL_SPACE
 70
     0
 10
0.0
 20
0.0
 30
0.0
  3
*MODEL_SPACE
  1

  0
ENDBLK
  5
21
330
1F
100
AcDbEntity
  8
0
100
AcDbBlockEnd
  0
BLOCK
  5
1C
330
1B
100
AcDbEntity
 67
     1
  8
0
100
AcDbBlockBegin
  2
*PAPER_SPACE
  1

  0
ENDBLK
  5
1D
330
1B
100
AcDbEntity
 67
     1
  8
0
100
AcDbBlockEnd
  0
ENDSEC
  0
SECTION
  2
ENTITIES
  0
LWPOLYLINE
  5
100
100
AcDbEntity
  8
0
 62
7
100
AcDbPolyline
 90
12
 70
1
 10
-0.016239
 20
2.430282
 30
0.0
 10
-0.016239
 20
2.397802
 30
0.0
 10
-0.160501
 20
2.397802
 30
0.0
 10
-0.161904
 20
2.397981
 30
0.0
 10
-0.182566
 20
2.400987
 30
0.0
 10
-0.203173
 20
2.404353
 30
0.0
 10
-0.223718
 20
2.408079
 30
0.0
 10
-0.244195
 20
2.412162
 30
0.0
 10
-0.264598
 20
2.416602
 30
0.0
 10
-0.284920
 20
2.421398
 30
0.0
 10
-0.305155
 20
2.426547
 30
0.0
 10
-0.318828
 20
2.430282
 30
0.0
  0
LWPOLYLINE
  5
101
100
AcDbEntity
  8
0
 62
7
100
AcDbPolyline
 90
8
 70
1
 10
-0.016239
 20
2.495243
 30
0.0
 10
-0.016239
 20
2.462762
 30
0.0
 10
-0.418935
 20
2.462762
 30
0.0
 10
-0.424400
 20
2.464782
 30
0.0
 10
-0.443857
 20
2.472359
 30
0.0
 10
-0.463179
 20
2.480275
 30
0.0
 10
-0.482359
 20
2.488526
 30
0.0
 10
-0.497250
 20
2.495243
 30
0.0
  0
LWPOLYLINE
  5
102
100
AcDbEntity
  8
0
 62
7
100
AcDbPolyline
 90
7
 70
1
 10
-0.016239
 20
2.560203
 30
0.0
 10
-0.016239
 20
2.527723
 30
0.0
 10
-0.562912
 20
2.527723
 30
0.0
 10
-0.575942
 20
2.534733
 30
0.0
 10
-0.594155
 20
2.544944
 30
0.0
 10
-0.612187
 20
2.555471
 30
0.0
 10
-0.619977
 20
2.560203
 30
0.0
  0
LWPOLYLINE
  5
103
100
AcDbEntity
  8
0
 62
7
100
AcDbPolyline
 90
7
 70
1
 10
-0.016239
 20
2.625164
 30
0.0
 10
-0.016239
 20
2.592684
 30
0.0
 10
-0.670665
 20
2.592684
 30
0.0
 10
-0.682396
 20
2.600679
 30
0.0
 10
-0.699442
 20
2.612738
 30
0.0
 10
-0.716274
 20
2.625093
 30
0.0
 10
-0.716367
 20
2.625164
 30
0.0
  0
LWPOLYLINE
  5
104
100
AcDbEntity
  8
0
 62
7
100
AcDbPolyline
 90
6
 70
1
 10
-0.016239
 20
2.690125
 30
0.0
 10
-0.016239
 20
2.657644
 30
0.0
 10
-0.757802
 20
2.657644
 30
0.0
 10
-0.765443
 20
2.663893
 30
0.0
 10
-0.781373
 20
2.677392
 30
0.0
 10
-0.795877
 20
2.690125
 30
0.0
  0
LWPOLYLINE
  5
105
100
AcDbEntity
  8
0
 62
7
100
AcDbPolyline
 90
6
 70
1
 10
-0.016239
 20
2.755085
 30
0.0
 10
-0.016239
 20
2.722605
 30
0.0
 10
-0.830871
 20
2.722605
 30
0.0
 10
-0.842665
 20
2.734105
 30
0.0
 10
-0.857358
 20
2.748941
 30
0.0
 10
-0.863234
 20
2.755085
 30
0.0
  0
LWPOLYLINE
  5
106
100
AcDbEntity
  8
0
 62
7
100
AcDbPolyline
 90
6
 70
1
 10
-0.016239
 20
2.820046
 30
0.0
 10
-0.016239
 20
2.787566
 30
0.0
 10
-0.893263
 20
2.787566
 30
0.0
 10
-0.899851
 20
2.794955
 30
0.0
 10
-0.913473
 20
2.810779
 30
0.0
 10
-0.921173
 20
2.820046
 30
0.0
  0
LWPOLYLINE
  5
107
100
AcDbEntity
  8
0
 62
7
100
AcDbPolyline
 90
6
 70
1
 10
-0.016239
 20
2.885007
 30
0.0
 10
-0.016239
 20
2.852526
 30
0.0
 10
-0.947147
 20
2.852526
 30
0.0
 10
-0.952654
 20
2.859646
 30
0.0
 10
-0.965139
 20
2.876382
 30
0.0
 10
-0.971341
 20
2.885007
 30
0.0
  0
LWPOLYLINE
  5
108
100
AcDbEntity
  8
0
 62
7
100
AcDbPolyline
 90
6
 70
1
 10
-0.016239
 20
2.949967
 30
0.0
 10
-0.016239
 20
2.917487
 30
0.0
 10
-0.993890
 20
2.917487
 30
0.0
 10
-1.000815
 20
2.927862
 30
0.0
 10
-1.012102
 20
2.945429
 30
0.0
 10
-1.014908
 20
2.949967
 30
0.0
  0
LWPOLYLINE
  5
109
100
AcDbEntity
  8
0
 62
7
100
AcDbPolyline
 90
5
 70
1
 10
-0.016239
 20
3.014928
 30
0.0
 10
-0.016239
 20
2.982448
 30
0.0
 10
-1.034495
 20
2.982448
 30
0.0
 10
-1.044101
 20
2.999272
 30
0.0
 10
-1.052680
 20
3.014928
 30
0.0
  0
LWPOLYLINE
  5
10a
100
AcDbEntity
  8
0
 62
7
100
AcDbPolyline
 90
6
 70
1
 10
-0.016239
 20
3.079888
 30
0.0
 10
-0.016239
 20
3.047408
 30
0.0
 10
-1.069558
 20
3.047408
 30
0.0
 10
-1.073237
 20
3.054717
 30
0.0
 10
-1.082299
 20
3.073528
 30
0.0
 10
-1.085228
 20
3.079888
 30
0.0
  0
LWPOLYLINE
  5
10b
100
AcDbEntity
  8
0
 62
7
100
AcDbPolyline
 90
5
 70
1
 10
-0.016239
 20
3.144849
 30
0.0
 10
-0.016239
 20
3.112369
 30
0.0
 10
-1.099750
 20
3.112369
 30
0.0
 10
-1.107497
 20
3.130870
 30
0.0
 10
-1.113066
 20
3.144849
 30
0.0
  0
LWPOLYLINE
  5
10c
100
AcDbEntity
  8
0
 62
7
100
AcDbPolyline
 90
6
 70
1
 10
-0.016239
 20
3.209810
 30
0.0
 10
-0.016239
 20
3.177329
 30
0.0
 10
-1.125314
 20
3.177329
 30
0.0
 10
-1.129659
 20
3.189452
 30
0.0
 10
-1.136362
 20
3.209227
 30
0.0
 10
-1.136548
 20
3.209810
 30
0.0
  0
LWPOLYLINE
  5
10d
100
AcDbEntity
  8
0
 62
7
100
AcDbPolyline
 90
6
 70
1
 10
-0.016239
 20
3.274770
 30
0.0
 10
-0.016239
 20
3.242290
 30
0.0
 10
-1.146675
 20
3.242290
 30
0.0
 10
-1.148725
 20
3.249113
 30
0.0
 10
-1.154383
 20
3.269212
 30
0.0
 10
-1.155844
 20
3.274770
 30
0.0
  0
LWPOLYLINE
  5
10e
100
AcDbEntity
  8
0
 62
7
100
AcDbPolyline
 90
6
 70
1
 10
-0.016239
 20
3.339731
 30
0.0
 10
-0.016239
 20
3.307251
 30
0.0
 10
-1.164047
 20
3.307251
 30
0.0
 10
-1.164643
 20
3.309691
 30
0.0
 10
-1.169241
 20
3.330059
 30
0.0
 10
-1.171248
 20
3.339731
 30
0.0
  0
LWPOLYLINE
  5
10f
100
AcDbEntity
  8
0
 62
7
100
AcDbPolyline
 90
5
 70
1
 10
-0.016239
 20
3.404692
 30
0.0
 10
-0.016239
 20
3.372211
 30
0.0
 10
-1.177572
 20
3.372211
 30
0.0
 10
-1.180894
 20
3.391599
 30
0.0
 10
-1.182903
 20
3.404692
 30
0.0
  0
LWPOLYLINE
  5
110
100
AcDbEntity
  8
0
 62
7
100
AcDbPolyline
 90
5
 70
1
 10
-0.016239
 20
3.469652
 30
0.0
 10
-0.016239
 20
3.437172
 30
0.0
 10
-1.187366
 20
3.437172
 30
0.0
 10
-1.189310
 20
3.453665
 30
0.0
 10
-1.190912
 20
3.469652
 30
0.0
  0
LWPOLYLINE
  5
111
100
AcDbEntity
  8
0
 62
7
100
AcDbPolyline
 90
5
 70
1
 10
-0.016239
 20
3.534613
 30
0.0
 10
-0.016239
 20
3.502133
 30
0.0
 10
-1.193559
 20
3.502133
 30
0.0
 10
-1.194467
 20
3.516086
 30
0.0
 10
-1.195348
 20
3.534613
 30
0.0
  0
LWPOLYLINE
  5
112
100
AcDbEntity
  8
0
 62
7
100
AcDbPolyline
 90
6
 70
1
 10
-0.016239
 20
3.599573
 30
0.0
 10
-0.016239
 20
3.567093
 30
0.0
 10
-1.196203
 20
3.567093
 30
0.0
 10
-1.196349
 20
3.578692
 30
0.0
 10
-1.196248
 20
3.599572
 30
0.0
 10
-1.196248
 20
3.599573
 30
0.0
  0
LWPOLYLINE
  5
113
100
AcDbEntity
  8
0
 62
7
100
AcDbPolyline
 90
6
 70
1
 10
-0.016239
 20
3.664534
 30
0.0
 10
-0.016239
 20
3.632054
 30
0.0
 10
-1.195321
 20
3.632054
 30
0.0
 10
-1.194953
 20
3.641311
 30
0.0
 10
-1.193759
 20
3.662157
 30
0.0
 10
-1.193581
 20
3.664534
 30
0.0
  0
LWPOLYLINE
  5
114
100
AcDbEntity
  8
0
 62
7
100
AcDbPolyline
 90
6
 70
1
 10
-0.016239
 20
3.729495
 30
0.0
 10
-0.016239
 20
3.697014
 30
0.0
 10
-1.190905
 20
3.697014
 30
0.0
 10
-1.190281
 20
3.703770
 30
0.0
 10
-1.187997
 20
3.724525
 30
0.0
 10
-1.187363
 20
3.729495
 30
0.0
  0
LWPOLYLINE
  5
115
100
AcDbEntity
  8
0
 62
7
100
AcDbPolyline
 90
6
 70
1
 10
-0.016239
 20
3.794455
 30
0.0
 10
-0.016239
 20
3.761975
 30
0.0
 10
-1.182917
 20
3.761975
 30
0.0
 10
-1.182346
 20
3.765900
 30
0.0
 10
-1.178980
 20
3.786506
 30
0.0
 10
-1.177539
 20
3.794455
 30
0.0
  0
LWPOLYLINE
  5
116
100
AcDbEntity
  8
0
 62
7
100
AcDbPolyline
 90
6
 70
1
 10
-0.016239
 20
3.859416
 30
0.0
 10
-0.016239
 20
3.826936
 30
0.0
 10
-1.171289
 20
3.826936
 30
0.0
 10
-1.171171
 20
3.827529
 30
0.0
 10
-1.166731
 20
3.847931
 30
0.0
 10
-1.164021
 20
3.859416
 30
0.0
  0
LWPOLYLINE
  5
117
100
AcDbEntity
  8
0
 62
7
100
AcDbPolyline
 90
5
 70
1
 10
-0.016239
 20
3.924377
 30
0.0
 10
-0.016239
 20
3.891896
 30
0.0
 10
-1.155855
 20
3.891896
 30
0.0
 10
-1.151284
 20
3.908630
 30
0.0
 10
-1.146686
 20
3.924377
 30
0.0
  0
LWPOLYLINE
  5
118
100
AcDbEntity
  8
0
 62
7
100
AcDbPolyline
 90
6
 70
1
 10
-0.016239
 20
3.989337
 30
0.0
 10
-0.016239
 20
3.956857
 30
0.0
 10
-1.136507
 20
3.956857
 30
0.0
 10
-1.132681
 20
3.968438
 30
0.0
 10
-1.125788
 20
3.988148
 30
0.0
 10
-1.125348
 20
3.989337
 30
0.0
  0
LWPOLYLINE
  5
119
100
AcDbEntity
  8
0
 62
7
100
AcDbPolyline
 90
6
 70
1
 10
-0.016239
 20
4.054298
 30
0.0
 10
-0.016239
 20
4.021818
 30
0.0
 10
-1.113067
 20
4.021818
 30
0.0
 10
-1.110974
 20
4.027190
 30
0.0
 10
-1.103059
 20
4.046512
 30
0.0
 10
-1.099709
 20
4.054298
 30
0.0
  0
LWPOLYLINE
  5
11a
100
AcDbEntity
  8
0
 62
7
100
AcDbPolyline
 90
5
 70
1
 10
-0.016239
 20
4.119259
 30
0.0
 10
-0.016239
 20
4.086778
 30
0.0
 10
-1.085253
 20
4.086778
 30
0.0
 10
-1.077306
 20
4.103607
 30
0.0
 10
-1.069578
 20
4.119259
 30
0.0
  0
LWPOLYLINE
  5
11b
100
AcDbEntity
  8
0
 62
7
100
AcDbPolyline
 90
6
 70
1
 10
-0.016239
 20
4.184219
 30
0.0
 10
-0.016239
 20
4.151739
 30
0.0
 10
-1.052655
 20
4.151739
 30
0.0
 10
-1.048601
 20
4.159276
 30
0.0
 10
-1.038389
 20
4.177489
 30
0.0
 10
-1.034460
 20
4.184219
 30
0.0
  0
LWPOLYLINE
  5
11c
100
AcDbEntity
  8
0
 62
7
100
AcDbPolyline
 90
6
 70
1
 10
-0.016239
 20
4.249180
 30
0.0
 10
-0.016239
 20
4.216699
 30
0.0
 10
-1.014916
 20
4.216699
 30
0.0
 10
-1.005871
 20
4.231019
 30
0.0
 10
-0.994414
 20
4.248476
 30
0.0
 10
-0.993934
 20
4.249180
 30
0.0
  0
LWPOLYLINE
  5
11d
100
AcDbEntity
  8
0
 62
7
100
AcDbPolyline
 90
6
 70
1
 10
-0.016239
 20
4.314140
 30
0.0
 10
-0.016239
 20
4.281660
 30
0.0
 10
-0.971384
 20
4.281660
 30
0.0
 10
-0.970595
 20
4.282775
 30
0.0
 10
-0.958240
 20
4.299608
 30
0.0
 10
-0.947178
 20
4.314140
 30
0.0
  0
LWPOLYLINE
  5
11e
100
AcDbEntity
  8
0
 62
7
100
AcDbPolyline
 90
6
 70
1
 10
-0.016239
 20
4.379101
 30
0.0
 10
-0.016239
 20
4.346621
 30
0.0
 10
-0.921203
 20
4.346621
 30
0.0
 10
-0.919440
 20
4.348776
 30
0.0
 10
-0.905941
 20
4.364706
 30
0.0
 10
-0.893305
 20
4.379101
 30
0.0
  0
LWPOLYLINE
  5
11f
100
AcDbEntity
  8
0
 62
7
100
AcDbPolyline
 90
6
 70
1
 10
-0.016239
 20
4.444062
 30
0.0
 10
-0.016239
 20
4.411581
 30
0.0
 10
-0.863286
 20
4.411581
 30
0.0
 10
-0.849229
 20
4.425998
 30
0.0
 10
-0.834393
 20
4.440691
 30
0.0
 10
-0.830868
 20
4.444062
 30
0.0
  0
LWPOLYLINE
  5
120
100
AcDbEntity
  8
0
 62
7
100
AcDbPolyline
 90
6
 70
1
 10
-0.016239
 20
4.509022
 30
0.0
 10
-0.016239
 20
4.476542
 30
0.0
 10
-0.795828
 20
4.476542
 30
0.0
 10
-0.788379
 20
4.483185
 30
0.0
 10
-0.772554
 20
4.496807
 30
0.0
 10
-0.757852
 20
4.509022
 30
0.0
  0
LWPOLYLINE
  5
121
100
AcDbEntity
  8
0
 62
7
100
AcDbPolyline
 90
7
 70
1
 10
-0.016239
 20
4.573983
 30
0.0
 10
-0.016239
 20
4.541503
 30
0.0
 10
-0.716294
 20
4.541503
 30
0.0
 10
-0.706951
 20
4.548472
 30
0.0
 10
-0.690000
 20
4.560663
 30
0.0
 10
-0.672838
 20
4.572556
 30
0.0
 10
-0.670701
 20
4.573983
 30
0.0
  0
LWPOLYLINE
  5
122
100
AcDbEntity
  8
0
 62
7
100
AcDbPolyline
 90
7
 70
1
 10
-0.016239
 20
4.638944
 30
0.0
 10
-0.016239
 20
4.606463
 30
0.0
 10
-0.620062
 20
4.606463
 30
0.0
 10
-0.602194
 20
4.617082
 30
0.0
 10
-0.584061
 20
4.627434
 30
0.0
 10
-0.565750
 20
4.637468
 30
0.0
 10
-0.562942
 20
4.638944
 30
0.0
  0
LWPOLYLINE
  5
123
100
AcDbEntity
  8
0
 62
7
100
AcDbPolyline
 90
8
 70
1
 10
-0.016239
 20
4.703904
 30
0.0
 10
-0.016239
 20
4.671424
 30
0.0
 10
-0.497227
 20
4.671424
 30
0.0
 10
-0.490839
 20
4.674365
 30
0.0
 10
-0.471723
 20
4.682765
 30
0.0
 10
-0.452464
 20
4.690830
 30
0.0
 10
-0.433066
 20
4.698558
 30
0.0
 10
-0.418935
 20
4.703904
 30
0.0
  0
LWPOLYLINE
  5
124
100
AcDbEntity
  8
0
 62
7
100
AcDbPolyline
 90
12
 70
1
 10
-0.016239
 20
4.768865
 30
0.0
 10
-0.016239
 20
4.736385
 30
0.0
 10
-0.318854
 20
4.736385
 30
0.0
 10
-0.314121
 20
4.737717
 30
0.0
 10
-0.293926
 20
4.743023
 30
0.0
 10
-0.273642
 20
4.747976
 30
0.0
 10
-0.253275
 20
4.752575
 30
0.0
 10
-0.232830
 20
4.756817
 30
0.0
 10
-0.212315
 20
4.760701
 30
0.0
 10
-0.191734
 20
4.764228
 30
0.0
 10
-0.171096
 20
4.767394
 30
0.0
 10
-0.160248
 20
4.768865
 30
0.0
  0
LWPOLYLINE
  5
125
100
AcDbEntity
  8
0
 62
7
100
AcDbPolyline
 90
5
 70
1
 10
0.016239
 20
4.758687
 30
0.0
 10
0.016239
 20
4.779581
 30
0.0
 10
0.037114
 20
4.779116
 30
0.0
 10
0.057977
 20
4.778286
 30
0.0
 10
0.068440
 20
4.777687
 30
0.0
  0
LWPOLYLINE
  5
126
100
AcDbEntity
  8
0
 62
7
100
AcDbPolyline
 90
7
 70
1
 10
0.016239
 20
4.689557
 30
0.0
 10
0.016239
 20
4.724122
 30
0.0
 10
0.144709
 20
4.770882
 30
0.0
 10
0.161904
 20
4.768686
 30
0.0
 10
0.182566
 20
4.765680
 30
0.0
 10
0.203173
 20
4.762313
 30
0.0
 10
0.211824
 20
4.760745
 30
0.0
  0
LWPOLYLINE
  5
127
100
AcDbEntity
  8
0
 62
7
100
AcDbPolyline
 90
7
 70
1
 10
0.016239
 20
4.620428
 30
0.0
 10
0.016239
 20
4.654993
 30
0.0
 10
0.272392
 20
4.748225
 30
0.0
 10
0.284920
 20
4.745269
 30
0.0
 10
0.305155
 20
4.740119
 30
0.0
 10
0.325297
 20
4.734617
 30
0.0
 10
0.327891
 20
4.733860
 30
0.0
  0
LWPOLYLINE
  5
128
100
AcDbEntity
  8
0
 62
7
100
AcDbPolyline
 90
7
 70
1
 10
0.016239
 20
4.551298
 30
0.0
 10
0.016239
 20
4.585863
 30
0.0
 10
0.379193
 20
4.717967
 30
0.0
 10
0.385105
 20
4.716015
 30
0.0
 10
0.404814
 20
4.709121
 30
0.0
 10
0.424400
 20
4.701885
 30
0.0
 10
0.427092
 20
4.700837
 30
0.0
  0
LWPOLYLINE
  5
129
100
AcDbEntity
  8
0
 62
7
100
AcDbPolyline
 90
6
 70
1
 10
0.016239
 20
4.482169
 30
0.0
 10
0.016239
 20
4.516733
 30
0.0
 10
0.471975
 20
4.682608
 30
0.0
 10
0.482359
 20
4.678141
 30
0.0
 10
0.501393
 20
4.669555
 30
0.0
 10
0.514315
 20
4.663453
 30
0.0
  0
LWPOLYLINE
  5
12a
100
AcDbEntity
  8
0
 62
7
100
AcDbPolyline
 90
6
 70
1
 10
0.016239
 20
4.413039
 30
0.0
 10
0.016239
 20
4.447604
 30
0.0
 10
0.554370
 20
4.643468
 30
0.0
 10
0.557554
 20
4.641826
 30
0.0
 10
0.575942
 20
4.631934
 30
0.0
 10
0.592359
 20
4.622730
 30
0.0
  0
LWPOLYLINE
  5
12b
100
AcDbEntity
  8
0
 62
7
100
AcDbPolyline
 90
6
 70
1
 10
0.016239
 20
4.343909
 30
0.0
 10
0.016239
 20
4.378474
 30
0.0
 10
0.628466
 20
4.601306
 30
0.0
 10
0.630033
 20
4.600355
 30
0.0
 10
0.647686
 20
4.589204
 30
0.0
 10
0.662845
 20
4.579255
 30
0.0
  0
LWPOLYLINE
  5
12c
100
AcDbEntity
  8
0
 62
7
100
AcDbPolyline
 90
6
 70
1
 10
0.016239
 20
4.274780
 30
0.0
 10
0.016239
 20
4.309345
 30
0.0
 10
0.695632
 20
4.556623
 30
0.0
 10
0.699442
 20
4.553928
 30
0.0
 10
0.716274
 20
4.541573
 30
0.0
 10
0.726941
 20
4.533454
 30
0.0
  0
LWPOLYLINE
  5
12d
100
AcDbEntity
  8
0
 62
7
100
AcDbPolyline
 90
6
 70
1
 10
0.016239
 20
4.205650
 30
0.0
 10
0.016239
 20
4.240215
 30
0.0
 10
0.756872
 20
4.509783
 30
0.0
 10
0.765443
 20
4.502773
 30
0.0
 10
0.781373
 20
4.489274
 30
0.0
 10
0.785511
 20
4.485642
 30
0.0
  0
LWPOLYLINE
  5
12e
100
AcDbEntity
  8
0
 62
7
100
AcDbPolyline
 90
5
 70
1
 10
0.016239
 20
4.136520
 30
0.0
 10
0.016239
 20
4.171085
 30
0.0
 10
0.812933
 20
4.461058
 30
0.0
 10
0.827715
 20
4.447139
 30
0.0
 10
0.839115
 20
4.436023
 30
0.0
  0
LWPOLYLINE
  5
12f
100
AcDbEntity
  8
0
 62
7
100
AcDbPolyline
 90
6
 70
1
 10
0.016240
 20
4.067391
 30
0.0
 10
0.016240
 20
4.101956
 30
0.0
 10
0.864188
 20
4.410584
 30
0.0
 10
0.871789
 20
4.402636
 30
0.0
 10
0.885955
 20
4.387296
 30
0.0
 10
0.888214
 20
4.384763
 30
0.0
  0
LWPOLYLINE
  5
130
100
AcDbEntity
  8
0
 62
7
100
AcDbPolyline
 90
6
 70
1
 10
0.016240
 20
3.998261
 30
0.0
 10
0.016240
 20
4.032826
 30
0.0
 10
0.911176
 20
4.358556
 30
0.0
 10
0.913473
 20
4.355887
 30
0.0
 10
0.926817
 20
4.339827
 30
0.0
 10
0.933112
 20
4.331976
 30
0.0
  0
LWPOLYLINE
  5
131
100
AcDbEntity
  8
0
 62
7
100
AcDbPolyline
 90
5
 70
1
 10
0.016240
 20
3.929132
 30
0.0
 10
0.016240
 20
3.963696
 30
0.0
 10
0.954119
 20
4.305057
 30
0.0
 10
0.965139
 20
4.290285
 30
0.0
 10
0.974134
 20
4.277777
 30
0.0
  0
LWPOLYLINE
  5
132
100
AcDbEntity
  8
0
 62
7
100
AcDbPolyline
 90
5
 70
1
 10
0.016240
 20
3.860002
 30
0.0
 10
0.016240
 20
3.894567
 30
0.0
 10
0.993233
 20
4.250163
 30
0.0
 10
1.000815
 20
4.238804
 30
0.0
 10
1.011463
 20
4.222233
 30
0.0
  0
LWPOLYLINE
  5
133
100
AcDbEntity
  8
0
 62
7
100
AcDbPolyline
 90
6
 70
1
 10
0.016240
 20
3.790872
 30
0.0
 10
0.016240
 20
3.825437
 30
0.0
 10
1.028739
 20
4.193957
 30
0.0
 10
1.033748
 20
4.185527
 30
0.0
 10
1.044101
 20
4.167394
 30
0.0
 10
1.045202
 20
4.165384
 30
0.0
  0
LWPOLYLINE
  5
134
100
AcDbEntity
  8
0
 62
7
100
AcDbPolyline
 90
6
 70
1
 10
0.016240
 20
3.721743
 30
0.0
 10
0.016240
 20
3.756308
 30
0.0
 10
1.060757
 20
4.136481
 30
0.0
 10
1.063848
 20
4.130600
 30
0.0
 10
1.073237
 20
4.111950
 30
0.0
 10
1.075488
 20
4.107277
 30
0.0
  0
LWPOLYLINE
  5
135
100
AcDbEntity
  8
0
 62
7
100
AcDbPolyline
 90
6
 70
1
 10
0.016240
 20
3.652613
 30
0.0
 10
0.016240
 20
3.687178
 30
0.0
 10
1.089376
 20
4.077768
 30
0.0
 10
1.091032
 20
4.074172
 30
0.0
 10
1.099432
 20
4.055056
 30
0.0
 10
1.102409
 20
4.047946
 30
0.0
  0
LWPOLYLINE
  5
136
100
AcDbEntity
  8
0
 62
7
100
AcDbPolyline
 90
7
 70
1
 10
0.016240
 20
3.618048
 30
0.0
 10
1.114652
 20
4.017838
 30
0.0
 10
1.115225
 20
4.016400
 30
0.0
 10
1.122613
 20
3.996870
 30
0.0
 10
1.126006
 20
3.987405
 30
0.0
 10
0.060447
 20
3.599573
 30
0.0
 10
0.016240
 20
3.599573
 30
0.0
  0
LWPOLYLINE
  5
137
100
AcDbEntity
  8
0
 62
7
100
AcDbPolyline
 90
5
 70
1
 10
1.136599
 20
3.956696
 30
0.0
 10
1.142718
 20
3.937550
 30
0.0
 10
1.146290
 20
3.925658
 30
0.0
 10
0.250379
 20
3.599573
 30
0.0
 10
0.155413
 20
3.599573
 30
0.0
  0
LWPOLYLINE
  5
138
100
AcDbEntity
  8
0
 62
7
100
AcDbPolyline
 90
5
 70
1
 10
1.155202
 20
3.894337
 30
0.0
 10
1.159690
 20
3.877260
 30
0.0
 10
1.163245
 20
3.862700
 30
0.0
 10
0.440310
 20
3.599573
 30
0.0
 10
0.345344
 20
3.599573
 30
0.0
  0
LWPOLYLINE
  5
139
100
AcDbEntity
  8
0
 62
7
100
AcDbPolyline
 90
5
 70
1
 10
1.170455
 20
3.830759
 30
0.0
 10
1.173483
 20
3.816163
 30
0.0
 10
1.176826
 20
3.798513
 30
0.0
 10
0.630242
 20
3.599573
 30
0.0
 10
0.535276
 20
3.599573
 30
0.0
  0
LWPOLYLINE
  5
13a
100
AcDbEntity
  8
0
 62
7
100
AcDbPolyline
 90
6
 70
1
 10
1.182295
 20
3.765939
 30
0.0
 10
1.184061
 20
3.754429
 30
0.0
 10
1.186866
 20
3.733738
 30
0.0
 10
1.186945
 20
3.733067
 30
0.0
 10
0.820173
 20
3.599572
 30
0.0
 10
0.725207
 20
3.599573
 30
0.0
  0
LWPOLYLINE
  5
13b
100
AcDbEntity
  8
0
 62
7
100
AcDbPolyline
 90
6
 70
1
 10
1.190629
 20
3.699843
 30
0.0
 10
1.191392
 20
3.692226
 30
0.0
 10
1.193111
 20
3.671416
 30
0.0
 10
1.193444
 20
3.666302
 30
0.0
 10
1.010105
 20
3.599572
 30
0.0
 10
0.915139
 20
3.599572
 30
0.0
  0
LWPOLYLINE
  5
13c
100
AcDbEntity
  8
0
 62
7
100
AcDbPolyline
 90
5
 70
1
 10
1.195330
 20
3.632424
 30
0.0
 10
1.195459
 20
3.629724
 30
0.0
 10
1.196086
 20
3.608853
 30
0.0
 10
1.196248
 20
3.599572
 30
0.0
 10
1.105070
 20
3.599572
 30
0.0
  0
LWPOLYLINE
  5
13d
100
AcDbEntity
  8
0
 62
7
100
AcDbPolyline
 90
6
 70
1
 10
0.068523
 20
2.388950
 30
0.0
 10
0.067247
 20
2.388867
 30
0.0
 10
0.046390
 20
2.387875
 30
0.0
 10
0.025520
 20
2.387247
 30
0.0
 10
0.016239
 20
2.387085
 30
0.0
 10
0.016239
 20
2.407980
 30
0.0
  0
LWPOLYLINE
  5
13e
100
AcDbEntity
  8
0
 62
7
100
AcDbPolyline
 90
7
 70
1
 10
0.211900
 20
2.405894
 30
0.0
 10
0.191734
 20
2.402439
 30
0.0
 10
0.171096
 20
2.399273
 30
0.0
 10
0.150405
 20
2.396467
 30
0.0
 10
0.144687
 20
2.395793
 30
0.0
 10
0.016239
 20
2.442544
 30
0.0
 10
0.016239
 20
2.477109
 30
0.0
  0
LWPOLYLINE
  5
13f
100
AcDbEntity
  8
0
 62
7
100
AcDbPolyline
 90
7
 70
1
 10
0.327861
 20
2.432818
 30
0.0
 10
0.314121
 20
2.428950
 30
0.0
 10
0.293926
 20
2.423644
 30
0.0
 10
0.273642
 20
2.418690
 30
0.0
 10
0.272449
 20
2.418421
 30
0.0
 10
0.016239
 20
2.511674
 30
0.0
 10
0.016239
 20
2.546239
 30
0.0
  0
LWPOLYLINE
  5
140
100
AcDbEntity
  8
0
 62
7
100
AcDbPolyline
 90
6
 70
1
 10
0.427068
 20
2.465839
 30
0.0
 10
0.413537
 20
2.460720
 30
0.0
 10
0.393882
 20
2.453674
 30
0.0
 10
0.379198
 20
2.448697
 30
0.0
 10
0.016239
 20
2.580804
 30
0.0
 10
0.016239
 20
2.615368
 30
0.0
  0
LWPOLYLINE
  5
141
100
AcDbEntity
  8
0
 62
7
100
AcDbPolyline
 90
6
 70
1
 10
0.514323
 20
2.503210
 30
0.0
 10
0.509805
 20
2.501034
 30
0.0
 10
0.490839
 20
2.492302
 30
0.0
 10
0.472033
 20
2.484038
 30
0.0
 10
0.016239
 20
2.649933
 30
0.0
 10
0.016239
 20
2.684498
 30
0.0
  0
LWPOLYLINE
  5
142
100
AcDbEntity
  8
0
 62
7
100
AcDbPolyline
 90
6
 70
1
 10
0.592324
 20
2.543950
 30
0.0
 10
0.584061
 20
2.539233
 30
0.0
 10
0.565750
 20
2.529199
 30
0.0
 10
0.554349
 20
2.523207
 30
0.0
 10
0.016239
 20
2.719063
 30
0.0
 10
0.016239
 20
2.753628
 30
0.0
  0
LWPOLYLINE
  5
143
100
AcDbEntity
  8
0
 62
7
100
AcDbPolyline
 90
6
 70
1
 10
0.662818
 20
2.587422
 30
0.0
 10
0.655471
 20
2.582518
 30
0.0
 10
0.637904
 20
2.571231
 30
0.0
 10
0.628429
 20
2.565374
 30
0.0
 10
0.016239
 20
2.788192
 30
0.0
 10
0.016239
 20
2.822757
 30
0.0
  0
LWPOLYLINE
  5
144
100
AcDbEntity
  8
0
 62
7
100
AcDbPolyline
 90
6
 70
1
 10
0.726956
 20
2.633207
 30
0.0
 10
0.723688
 20
2.630679
 30
0.0
 10
0.706951
 20
2.618194
 30
0.0
 10
0.695622
 20
2.610047
 30
0.0
 10
0.016239
 20
2.857322
 30
0.0
 10
0.016239
 20
2.891887
 30
0.0
  0
LWPOLYLINE
  5
145
100
AcDbEntity
  8
0
 62
7
100
AcDbPolyline
 90
5
 70
1
 10
0.785520
 20
2.681021
 30
0.0
 10
0.772554
 20
2.669860
 30
0.0
 10
0.756917
 20
2.656867
 30
0.0
 10
0.016239
 20
2.926452
 30
0.0
 10
0.016239
 20
2.961017
 30
0.0
  0
LWPOLYLINE
  5
146
100
AcDbEntity
  8
0
 62
7
100
AcDbPolyline
 90
6
 70
1
 10
0.839109
 20
2.730646
 30
0.0
 10
0.834393
 20
2.725976
 30
0.0
 10
0.819303
 20
2.711544
 30
0.0
 10
0.812892
 20
2.705624
 30
0.0
 10
0.016239
 20
2.995581
 30
0.0
 10
0.016239
 20
3.030146
 30
0.0
  0
LWPOLYLINE
  5
147
100
AcDbEntity
  8
0
 62
7
100
AcDbPolyline
 90
5
 70
1
 10
0.888201
 20
2.781908
 30
0.0
 10
0.878120
 20
2.770819
 30
0.0
 10
0.864229
 20
2.756068
 30
0.0
 10
0.016240
 20
3.064711
 30
0.0
 10
0.016240
 20
3.099276
 30
0.0
  0
LWPOLYLINE
  5
148
100
AcDbEntity
  8
0
 62
7
100
AcDbPolyline
 90
6
 70
1
 10
0.933151
 20
2.834677
 30
0.0
 10
0.932659
 20
2.834053
 30
0.0
 10
0.919440
 20
2.817890
 30
0.0
 10
0.911158
 20
2.808117
 30
0.0
 10
0.016240
 20
3.133841
 30
0.0
 10
0.016240
 20
3.168405
 30
0.0
  0
LWPOLYLINE
  5
149
100
AcDbEntity
  8
0
 62
7
100
AcDbPolyline
 90
6
 70
1
 10
0.974132
 20
2.888891
 30
0.0
 10
0.970595
 20
2.883892
 30
0.0
 10
0.958240
 20
2.867059
 30
0.0
 10
0.954098
 20
2.861618
 30
0.0
 10
0.016240
 20
3.202970
 30
0.0
 10
0.016240
 20
3.237535
 30
0.0
  0
LWPOLYLINE
  5
14a
100
AcDbEntity
  8
0
 62
7
100
AcDbPolyline
 90
6
 70
1
 10
1.011428
 20
2.944446
 30
0.0
 10
1.005871
 20
2.935647
 30
0.0
 10
0.994414
 20
2.918191
 30
0.0
 10
0.993257
 20
2.916495
 30
0.0
 10
0.016240
 20
3.272100
 30
0.0
 10
0.016240
 20
3.306665
 30
0.0
  0
LWPOLYLINE
  5
14b
100
AcDbEntity
  8
0
 62
7
100
AcDbPolyline
 90
5
 70
1
 10
1.045180
 20
3.001291
 30
0.0
 10
1.038389
 20
2.989178
 30
0.0
 10
1.028769
 20
2.972699
 30
0.0
 10
0.016240
 20
3.341230
 30
0.0
 10
0.016240
 20
3.375794
 30
0.0
  0
LWPOLYLINE
  5
14c
100
AcDbEntity
  8
0
 62
7
100
AcDbPolyline
 90
5
 70
1
 10
1.075493
 20
3.059387
 30
0.0
 10
1.068062
 20
3.044337
 30
0.0
 10
1.060764
 20
3.030184
 30
0.0
 10
0.016240
 20
3.410359
 30
0.0
 10
0.016240
 20
3.444924
 30
0.0
  0
LWPOLYLINE
  5
14d
100
AcDbEntity
  8
0
 62
7
100
AcDbPolyline
 90
5
 70
1
 10
1.102437
 20
3.118710
 30
0.0
 10
1.094807
 20
3.100974
 30
0.0
 10
1.089363
 20
3.088904
 30
0.0
 10
0.016240
 20
3.479489
 30
0.0
 10
0.016240
 20
3.514054
 30
0.0
  0
LWPOLYLINE
  5
14e
100
AcDbEntity
  8
0
 62
7
100
AcDbPolyline
 90
7
 70
1
 10
0.060447
 20
3.567093
 30
0.0
 10
1.126043
 20
3.179248
 30
0.0
 10
1.125788
 20
3.178519
 30
0.0
 10
1.118552
 20
3.158933
 30
0.0
 10
1.114621
 20
3.148840
 30
0.0
 10
0.016240
 20
3.548618
 30
0.0
 10
0.016240
 20
3.567093
 30
0.0
  0
LWPOLYLINE
  5
14f
100
AcDbEntity
  8
0
 62
7
100
AcDbPolyline
 90
6
 70
1
 10
0.155413
 20
3.567093
 30
0.0
 10
0.250379
 20
3.567093
 30
0.0
 10
1.146310
 20
3.241001
 30
0.0
 10
1.145431
 20
3.237993
 30
0.0
 10
1.139230
 20
3.218055
 30
0.0
 10
1.136564
 20
3.209983
 30
0.0
  0
LWPOLYLINE
  5
150
100
AcDbEntity
  8
0
 62
7
100
AcDbPolyline
 90
6
 70
1
 10
0.345344
 20
3.567094
 30
0.0
 10
0.440310
 20
3.567094
 30
0.0
 10
1.163246
 20
3.303967
 30
0.0
 10
1.161935
 20
3.298414
 30
0.0
 10
1.156786
 20
3.278178
 30
0.0
 10
1.155189
 20
3.272334
 30
0.0
  0
LWPOLYLINE
  5
151
100
AcDbEntity
  8
0
 62
7
100
AcDbPolyline
 90
6
 70
1
 10
0.535276
 20
3.567094
 30
0.0
 10
0.630242
 20
3.567094
 30
0.0
 10
1.176804
 20
3.368161
 30
0.0
 10
1.175255
 20
3.359615
 30
0.0
 10
1.171171
 20
3.339138
 30
0.0
 10
1.170467
 20
3.335903
 30
0.0
  0
LWPOLYLINE
  5
152
100
AcDbEntity
  8
0
 62
7
100
AcDbPolyline
 90
6
 70
1
 10
0.725207
 20
3.567094
 30
0.0
 10
0.820173
 20
3.567094
 30
0.0
 10
1.186908
 20
3.433613
 30
0.0
 10
1.185352
 20
3.421430
 30
0.0
 10
1.182346
 20
3.400767
 30
0.0
 10
1.182337
 20
3.400712
 30
0.0
  0
LWPOLYLINE
  5
153
100
AcDbEntity
  8
0
 62
7
100
AcDbPolyline
 90
5
 70
1
 10
0.915139
 20
3.567094
 30
0.0
 10
1.010105
 20
3.567094
 30
0.0
 10
1.193449
 20
3.500363
 30
0.0
 10
1.192201
 20
3.483688
 30
0.0
 10
1.190643
 20
3.466819
 30
0.0
  0
LWPOLYLINE
  5
154
100
AcDbEntity
  8
0
 62
7
100
AcDbPolyline
 90
4
 70
1
 10
1.105070
 20
3.567095
 30
0.0
 10
1.196248
 20
3.567095
 30
0.0
 10
1.195782
 20
3.546220
 30
0.0
 10
1.195306
 20
3.534251
 30
0.0
  0
LWPOLYLINE
  5
155
100
AcDbEntity
  8
0
 62
7
100
AcDbPolyline
 90
361
 70
1
 10
1.633858
 20
3.583333
 30
0.0
 10
1.633609
 20
3.554819
 30
0.0
 10
1.632863
 20
3.526313
 30
0.0
 10
1.631619
 20
3.497824
 30
0.0
 10
1.629878
 20
3.469361
 30
0.0
 10
1.627641
 20
3.440933
 30
0.0
 10
1.624908
 20
3.412549
 30
0.0
 10
1.621680
 20
3.384216
 30
0.0
 10
1.617958
 20
3.355944
 30
0.0
 10
1.613743
 20
3.327742
 30
0.0
 10
1.609036
 20
3.299617
 30
0.0
 10
1.603840
 20
3.271578
 30
0.0
 10
1.598155
 20
3.243635
 30
0.0
 10
1.591983
 20
3.215795
 30
0.0
 10
1.585326
 20
3.188067
 30
0.0
 10
1.578186
 20
3.160460
 30
0.0
 10
1.570565
 20
3.132981
 30
0.0
 10
1.562466
 20
3.105639
 30
0.0
 10
1.553892
 20
3.078443
 30
0.0
 10
1.544843
 20
3.051401
 30
0.0
 10
1.535325
 20
3.024521
 30
0.0
 10
1.525338
 20
2.997811
 30
0.0
 10
1.514887
 20
2.971279
 30
0.0
 10
1.503974
 20
2.944934
 30
0.0
 10
1.492604
 20
2.918783
 30
0.0
 10
1.480778
 20
2.892835
 30
0.0
 10
1.468502
 20
2.867097
 30
0.0
 10
1.455778
 20
2.841577
 30
0.0
 10
1.442611
 20
2.816283
 30
0.0
 10
1.429005
 20
2.791223
 30
0.0
 10
1.414963
 20
2.766404
 30
0.0
 10
1.400490
 20
2.741834
 30
0.0
 10
1.385590
 20
2.717520
 30
0.0
 10
1.370269
 20
2.693470
 30
0.0
 10
1.354530
 20
2.669691
 30
0.0
 10
1.338378
 20
2.646191
 30
0.0
 10
1.321819
 20
2.622976
 30
0.0
 10
1.304857
 20
2.600053
 30
0.0
 10
1.287498
 20
2.577430
 30
0.0
 10
1.269746
 20
2.555113
 30
0.0
 10
1.251608
 20
2.533109
 30
0.0
 10
1.233088
 20
2.511426
 30
0.0
 10
1.214193
 20
2.490069
 30
0.0
 10
1.194928
 20
2.469045
 30
0.0
 10
1.175299
 20
2.448360
 30
0.0
 10
1.155312
 20
2.428021
 30
0.0
 10
1.134973
 20
2.408034
 30
0.0
 10
1.114289
 20
2.388405
 30
0.0
 10
1.093265
 20
2.369140
 30
0.0
 10
1.071907
 20
2.350245
 30
0.0
 10
1.050224
 20
2.331725
 30
0.0
 10
1.028220
 20
2.313587
 30
0.0
 10
1.005904
 20
2.295835
 30
0.0
 10
0.983280
 20
2.278476
 30
0.0
 10
0.960358
 20
2.261514
 30
0.0
 10
0.937143
 20
2.244955
 30
0.0
 10
0.913642
 20
2.228803
 30
0.0
 10
0.889863
 20
2.213064
 30
0.0
 10
0.865813
 20
2.197743
 30
0.0
 10
0.841499
 20
2.182843
 30
0.0
 10
0.816929
 20
2.168371
 30
0.0
 10
0.792110
 20
2.154329
 30
0.0
 10
0.767050
 20
2.140722
 30
0.0
 10
0.741756
 20
2.127555
 30
0.0
 10
0.716236
 20
2.114831
 30
0.0
 10
0.690498
 20
2.102555
 30
0.0
 10
0.664550
 20
2.090730
 30
0.0
 10
0.638399
 20
2.079359
 30
0.0
 10
0.612054
 20
2.068446
 30
0.0
 10
0.585522
 20
2.057995
 30
0.0
 10
0.558812
 20
2.048009
 30
0.0
 10
0.531932
 20
2.038490
 30
0.0
 10
0.504890
 20
2.029442
 30
0.0
 10
0.477694
 20
2.020867
 30
0.0
 10
0.450352
 20
2.012768
 30
0.0
 10
0.422874
 20
2.005147
 30
0.0
 10
0.395266
 20
1.998008
 30
0.0
 10
0.367538
 20
1.991351
 30
0.0
 10
0.339698
 20
1.985179
 30
0.0
 10
0.311755
 20
1.979494
 30
0.0
 10
0.283717
 20
1.974297
 30
0.0
 10
0.255592
 20
1.969591
 30
0.0
 10
0.227389
 20
1.965376
 30
0.0
 10
0.199117
 20
1.961654
 30
0.0
 10
0.170785
 20
1.958426
 30
0.0
 10
0.142400
 20
1.955692
 30
0.0
 10
0.113972
 20
1.953455
 30
0.0
 10
0.085510
 20
1.951714
 30
0.0
 10
0.057021
 20
1.950470
 30
0.0
 10
0.028515
 20
1.949724
 30
0.0
 10
-0.000000
 20
1.949475
 30
0.0
 10
-0.028515
 20
1.949724
 30
0.0
 10
-0.057021
 20
1.950470
 30
0.0
 10
-0.085510
 20
1.951714
 30
0.0
 10
-0.113972
 20
1.953455
 30
0.0
 10
-0.142400
 20
1.955692
 30
0.0
 10
-0.170785
 20
1.958426
 30
0.0
 10
-0.199117
 20
1.961654
 30
0.0
 10
-0.227389
 20
1.965376
 30
0.0
 10
-0.255592
 20
1.969591
 30
0.0
 10
-0.283717
 20
1.974297
 30
0.0
 10
-0.311755
 20
1.979494
 30
0.0
 10
-0.339698
 20
1.985179
 30
0.0
 10
-0.367538
 20
1.991351
 30
0.0
 10
-0.395266
 20
1.998008
 30
0.0
 10
-0.422874
 20
2.005147
 30
0.0
 10
-0.450352
 20
2.012768
 30
0.0
 10
-0.477694
 20
2.020867
 30
0.0
 10
-0.504890
 20
2.029442
 30
0.0
 10
-0.531932
 20
2.038490
 30
0.0
 10
-0.558812
 20
2.048009
 30
0.0
 10
-0.585522
 20
2.057995
 30
0.0
 10
-0.612054
 20
2.068446
 30
0.0
 10
-0.638399
 20
2.079359
 30
0.0
 10
-0.664550
 20
2.090730
 30
0.0
 10
-0.690498
 20
2.102555
 30
0.0
 10
-0.716236
 20
2.114831
 30
0.0
 10
-0.741756
 20
2.127555
 30
0.0
 10
-0.767050
 20
2.140722
 30
0.0
 10
-0.792110
 20
2.154329
 30
0.0
 10
-0.816929
 20
2.168371
 30
0.0
 10
-0.841499
 20
2.182843
 30
0.0
 10
-0.865813
 20
2.197743
 30
0.0
 10
-0.889863
 20
2.213064
 30
0.0
 10
-0.913642
 20
2.228803
 30
0.0
 10
-0.937143
 20
2.244955
 30
0.0
 10
-0.960358
 20
2.261514
 30
0.0
 10
-0.983280
 20
2.278476
 30
0.0
 10
-1.005904
 20
2.295835
 30
0.0
 10
-1.028220
 20
2.313587
 30
0.0
 10
-1.050224
 20
2.331725
 30
0.0
 10
-1.071907
 20
2.350245
 30
0.0
 10
-1.093265
 20
2.369140
 30
0.0
 10
-1.114289
 20
2.388405
 30
0.0
 10
-1.134973
 20
2.408034
 30
0.0
 10
-1.155312
 20
2.428021
 30
0.0
 10
-1.175299
 20
2.448360
 30
0.0
 10
-1.194928
 20
2.469045
 30
0.0
 10
-1.214193
 20
2.490069
 30
0.0
 10
-1.233088
 20
2.511426
 30
0.0
 10
-1.251608
 20
2.533109
 30
0.0
 10
-1.269746
 20
2.555113
 30
0.0
 10
-1.287498
 20
2.577430
 30
0.0
 10
-1.304857
 20
2.600053
 30
0.0
 10
-1.321819
 20
2.622976
 30
0.0
 10
-1.338378
 20
2.646191
 30
0.0
 10
-1.354530
 20
2.669691
 30
0.0
 10
-1.370269
 20
2.693470
 30
0.0
 10
-1.385590
 20
2.717520
 30
0.0
 10
-1.400490
 20
2.741834
 30
0.0
 10
-1.414963
 20
2.766404
 30
0.0
 10
-1.429005
 20
2.791223
 30
0.0
 10
-1.442611
 20
2.816283
 30
0.0
 10
-1.455778
 20
2.841577
 30
0.0
 10
-1.468502
 20
2.867097
 30
0.0
 10
-1.480778
 20
2.892835
 30
0.0
 10
-1.492604
 20
2.918783
 30
0.0
 10
-1.503974
 20
2.944934
 30
0.0
 10
-1.514887
 20
2.971279
 30
0.0
 10
-1.525338
 20
2.997811
 30
0.0
 10
-1.535325
 20
3.024521
 30
0.0
 10
-1.544843
 20
3.051401
 30
0.0
 10
-1.553892
 20
3.078443
 30
0.0
 10
-1.562466
 20
3.105639
 30
0.0
 10
-1.570565
 20
3.132981
 30
0.0
 10
-1.578186
 20
3.160460
 30
0.0
 10
-1.585326
 20
3.188067
 30
0.0
 10
-1.591983
 20
3.215795
 30
0.0
 10
-1.598155
 20
3.243635
 30
0.0
 10
-1.603840
 20
3.271578
 30
0.0
 10
-1.609036
 20
3.299617
 30
0.0
 10
-1.613743
 20
3.327742
 30
0.0
 10
-1.617958
 20
3.355944
 30
0.0
 10
-1.621680
 20
3.384216
 30
0.0
 10
-1.624908
 20
3.412549
 30
0.0
 10
-1.627641
 20
3.440933
 30
0.0
 10
-1.629878
 20
3.469361
 30
0.0
 10
-1.631619
 20
3.497824
 30
0.0
 10
-1.632863
 20
3.526313
 30
0.0
 10
-1.633609
 20
3.554819
 30
0.0
 10
-1.633858
 20
3.583333
 30
0.0
 10
-1.633609
 20
3.611848
 30
0.0
 10
-1.632863
 20
3.640354
 30
0.0
 10
-1.631619
 20
3.668843
 30
0.0
 10
-1.629878
 20
3.697306
 30
0.0
 10
-1.627641
 20
3.725733
 30
0.0
 10
-1.624908
 20
3.754118
 30
0.0
 10
-1.621680
 20
3.782451
 30
0.0
 10
-1.617958
 20
3.810722
 30
0.0
 10
-1.613743
 20
3.838925
 30
0.0
 10
-1.609036
 20
3.867050
 30
0.0
 10
-1.603840
 20
3.895088
 30
0.0
 10
-1.598155
 20
3.923032
 30
0.0
 10
-1.591983
 20
3.950871
 30
0.0
 10
-1.585326
 20
3.978599
 30
0.0
 10
-1.578186
 20
4.006207
 30
0.0
 10
-1.570565
 20
4.033686
 30
0.0
 10
-1.562466
 20
4.061027
 30
0.0
 10
-1.553892
 20
4.088223
 30
0.0
 10
-1.544843
 20
4.115266
 30
0.0
 10
-1.535325
 20
4.142146
 30
0.0
 10
-1.525338
 20
4.168856
 30
0.0
 10
-1.514887
 20
4.195387
 30
0.0
 10
-1.503974
 20
4.221733
 30
0.0
 10
-1.492604
 20
4.247883
 30
0.0
 10
-1.480778
 20
4.273832
 30
0.0
 10
-1.468502
 20
4.299570
 30
0.0
 10
-1.455778
 20
4.325089
 30
0.0
 10
-1.442611
 20
4.350383
 30
0.0
 10
-1.429005
 20
4.375444
 30
0.0
 10
-1.414963
 20
4.400262
 30
0.0
 10
-1.400490
 20
4.424833
 30
0.0
 10
-1.385590
 20
4.449146
 30
0.0
 10
-1.370269
 20
4.473196
 30
0.0
 10
-1.354530
 20
4.496975
 30
0.0
 10
-1.338378
 20
4.520476
 30
0.0
 10
-1.321819
 20
4.543691
 30
0.0
 10
-1.304857
 20
4.566614
 30
0.0
 10
-1.287498
 20
4.589237
 30
0.0
 10
-1.269746
 20
4.611554
 30
0.0
 10
-1.251608
 20
4.633557
 30
0.0
 10
-1.233088
 20
4.655241
 30
0.0
 10
-1.214193
 20
4.676598
 30
0.0
 10
-1.194928
 20
4.697622
 30
0.0
 10
-1.175299
 20
4.718307
 30
0.0
 10
-1.155312
 20
4.738646
 30
0.0
 10
-1.134973
 20
4.758633
 30
0.0
 10
-1.114289
 20
4.778262
 30
0.0
 10
-1.093265
 20
4.797527
 30
0.0
 10
-1.071907
 20
4.816422
 30
0.0
 10
-1.050224
 20
4.834941
 30
0.0
 10
-1.028220
 20
4.853080
 30
0.0
 10
-1.005904
 20
4.870831
 30
0.0
 10
-0.983280
 20
4.888191
 30
0.0
 10
-0.960358
 20
4.905152
 30
0.0
 10
-0.937143
 20
4.921712
 30
0.0
 10
-0.913642
 20
4.937863
 30
0.0
 10
-0.889863
 20
4.953602
 30
0.0
 10
-0.865813
 20
4.968924
 30
0.0
 10
-0.841499
 20
4.983823
 30
0.0
 10
-0.816929
 20
4.998296
 30
0.0
 10
-0.792110
 20
5.012338
 30
0.0
 10
-0.767050
 20
5.025945
 30
0.0
 10
-0.741756
 20
5.039112
 30
0.0
 10
-0.716236
 20
5.051835
 30
0.0
 10
-0.690498
 20
5.064112
 30
0.0
 10
-0.664550
 20
5.075937
 30
0.0
 10
-0.638399
 20
5.087308
 30
0.0
 10
-0.612054
 20
5.098220
 30
0.0
 10
-0.585522
 20
5.108671
 30
0.0
 10
-0.558812
 20
5.118658
 30
0.0
 10
-0.531932
 20
5.128177
 30
0.0
 10
-0.504890
 20
5.137225
 30
0.0
 10
-0.477694
 20
5.145800
 30
0.0
 10
-0.450352
 20
5.153899
 30
0.0
 10
-0.422874
 20
5.161519
 30
0.0
 10
-0.395266
 20
5.168659
 30
0.0
 10
-0.367538
 20
5.175316
 30
0.0
 10
-0.339698
 20
5.181488
 30
0.0
 10
-0.311755
 20
5.187173
 30
0.0
 10
-0.283717
 20
5.192370
 30
0.0
 10
-0.255592
 20
5.197076
 30
0.0
 10
-0.227389
 20
5.201291
 30
0.0
 10
-0.199117
 20
5.205013
 30
0.0
 10
-0.170785
 20
5.208241
 30
0.0
 10
-0.142400
 20
5.210974
 30
0.0
 10
-0.113972
 20
5.213212
 30
0.0
 10
-0.085510
 20
5.214952
 30
0.0
 10
-0.057021
 20
5.216196
 30
0.0
 10
-0.028515
 20
5.216943
 30
0.0
 10
-0.000000
 20
5.217192
 30
0.0
 10
0.028515
 20
5.216943
 30
0.0
 10
0.057021
 20
5.216196
 30
0.0
 10
0.085510
 20
5.214952
 30
0.0
 10
0.113972
 20
5.213212
 30
0.0
 10
0.142400
 20
5.210974
 30
0.0
 10
0.170785
 20
5.208241
 30
0.0
 10
0.199117
 20
5.205013
 30
0.0
 10
0.227389
 20
5.201291
 30
0.0
 10
0.255592
 20
5.197076
 30
0.0
 10
0.283717
 20
5.192370
 30
0.0
 10
0.311755
 20
5.187173
 30
0.0
 10
0.339698
 20
5.181488
 30
0.0
 10
0.367538
 20
5.175316
 30
0.0
 10
0.395266
 20
5.168659
 30
0.0
 10
0.422874
 20
5.161519
 30
0.0
 10
0.450352
 20
5.153899
 30
0.0
 10
0.477694
 20
5.145800
 30
0.0
 10
0.504890
 20
5.137225
 30
0.0
 10
0.531932
 20
5.128177
 30
0.0
 10
0.558812
 20
5.118658
 30
0.0
 10
0.585522
 20
5.108671
 30
0.0
 10
0.612054
 20
5.098220
 30
0.0
 10
0.638399
 20
5.087308
 30
0.0
 10
0.664550
 20
5.075937
 30
0.0
 10
0.690498
 20
5.064112
 30
0.0
 10
0.716236
 20
5.051835
 30
0.0
 10
0.741756
 20
5.039112
 30
0.0
 10
0.767050
 20
5.025945
 30
0.0
 10
0.792110
 20
5.012338
 30
0.0
 10
0.816929
 20
4.998296
 30
0.0
 10
0.841499
 20
4.983823
 30
0.0
 10
0.865813
 20
4.968924
 30
0.0
 10
0.889863
 20
4.953602
 30
0.0
 10
0.913642
 20
4.937863
 30
0.0
 10
0.937143
 20
4.921712
 30
0.0
 10
0.960358
 20
4.905152
 30
0.0
 10
0.983280
 20
4.888191
 30
0.0
 10
1.005904
 20
4.870831
 30
0.0
 10
1.028220
 20
4.853080
 30
0.0
 10
1.050224
 20
4.834941
 30
0.0
 10
1.071907
 20
4.816422
 30
0.0
 10
1.093265
 20
4.797527
 30
0.0
 10
1.114289
 20
4.778262
 30
0.0
 10
1.134973
 20
4.758633
 30
0.0
 10
1.155312
 20
4.738646
 30
0.0
 10
1.175299
 20
4.718307
 30
0.0
 10
1.194928
 20
4.697622
 30
0.0
 10
1.214193
 20
4.676598
 30
0.0
 10
1.233088
 20
4.655241
 30
0.0
 10
1.251608
 20
4.633557
 30
0.0
 10
1.269746
 20
4.611554
 30
0.0
 10
1.287498
 20
4.589237
 30
0.0
 10
1.304857
 20
4.566614
 30
0.0
 10
1.321819
 20
4.543691
 30
0.0
 10
1.338378
 20
4.520476
 30
0.0
 10
1.354530
 20
4.496975
 30
0.0
 10
1.370269
 20
4.473196
 30
0.0
 10
1.385590
 20
4.449146
 30
0.0
 10
1.400490
 20
4.424833
 30
0.0
 10
1.414963
 20
4.400262
 30
0.0
 10
1.429005
 20
4.375444
 30
0.0
 10
1.442611
 20
4.350383
 30
0.0
 10
1.455778
 20
4.325089
 30
0.0
 10
1.468502
 20
4.299570
 30
0.0
 10
1.480778
 20
4.273832
 30
0.0
 10
1.492604
 20
4.247883
 30
0.0
 10
1.503974
 20
4.221733
 30
0.0
 10
1.514887
 20
4.195387
 30
0.0
 10
1.525338
 20
4.168856
 30
0.0
 10
1.535325
 20
4.142146
 30
0.0
 10
1.544843
 20
4.115266
 30
0.0
 10
1.553892
 20
4.088223
 30
0.0
 10
1.562466
 20
4.061027
 30
0.0
 10
1.570565
 20
4.033686
 30
0.0
 10
1.578186
 20
4.006207
 30
0.0
 10
1.585326
 20
3.978599
 30
0.0
 10
1.591983
 20
3.950871
 30
0.0
 10
1.598155
 20
3.923032
 30
0.0
 10
1.603840
 20
3.895088
 30
0.0
 10
1.609036
 20
3.867050
 30
0.0
 10
1.613743
 20
3.838925
 30
0.0
 10
1.617958
 20
3.810722
 30
0.0
 10
1.621680
 20
3.782451
 30
0.0
 10
1.624908
 20
3.754118
 30
0.0
 10
1.627641
 20
3.725733
 30
0.0
 10
1.629878
 20
3.697306
 30
0.0
 10
1.631619
 20
3.668843
 30
0.0
 10
1.632863
 20
3.640354
 30
0.0
 10
1.633609
 20
3.611848
 30
0.0
 10
1.633858
 20
3.583333
 30
0.0
  0
LWPOLYLINE
  5
156
100
AcDbEntity
  8
0
 62
7
100
AcDbPolyline
 90
361
 70
1
 10
0.000000
 20
3.583333
 30
0.0
 10
0.000000
 20
3.583333
 30
0.0
 10
0.000000
 20
3.583333
 30
0.0
 10
0.000000
 20
3.583333
 30
0.0
 10
0.000000
 20
3.583333
 30
0.0
 10
0.000000
 20
3.583333
 30
0.0
 10
0.000000
 20
3.583333
 30
0.0
 10
0.000000
 20
3.583333
 30
0.0
 10
0.000000
 20
3.583333
 30
0.0
 10
0.000000
 20
3.583333
 30
0.0
 10
0.000000
 20
3.583333
 30
0.0
 10
0.000000
 20
3.583333
 30
0.0
 10
0.000000
 20
3.583333
 30
0.0
 10
0.000000
 20
3.583333
 30
0.0
 10
0.000000
 20
3.583333
 30
0.0
 10
0.000000
 20
3.583333
 30
0.0
 10
0.000000
 20
3.583333
 30
0.0
 10
0.000000
 20
3.583333
 30
0.0
 10
0.000000
 20
3.583333
 30
0.0
 10
0.000000
 20
3.583333
 30
0.0
 10
0.000000
 20
3.583333
 30
0.0
 10
0.000000
 20
3.583333
 30
0.0
 10
0.000000
 20
3.583333
 30
0.0
 10
0.000000
 20
3.583333
 30
0.0
 10
0.000000
 20
3.583333
 30
0.0
 10
0.000000
 20
3.583333
 30
0.0
 10
0.000000
 20
3.583333
 30
0.0
 10
0.000000
 20
3.583333
 30
0.0
 10
0.000000
 20
3.583333
 30
0.0
 10
0.000000
 20
3.583333
 30
0.0
 10
0.000000
 20
3.583333
 30
0.0
 10
0.000000
 20
3.583333
 30
0.0
 10
0.000000
 20
3.583333
 30
0.0
 10
0.000000
 20
3.583333
 30
0.0
 10
0.000000
 20
3.583333
 30
0.0
 10
0.000000
 20
3.583333
 30
0.0
 10
0.000000
 20
3.583333
 30
0.0
 10
0.000000
 20
3.583333
 30
0.0
 10
0.000000
 20
3.583333
 30
0.0
 10
0.000000
 20
3.583333
 30
0.0
 10
0.000000
 20
3.583333
 30
0.0
 10
0.000000
 20
3.583333
 30
0.0
 10
0.000000
 20
3.583333
 30
0.0
 10
0.000000
 20
3.583333
 30
0.0
 10
0.000000
 20
3.583333
 30
0.0
 10
0.000000
 20
3.583333
 30
0.0
 10
0.000000
 20
3.583333
 30
0.0
 10
0.000000
 20
3.583333
 30
0.0
 10
0.000000
 20
3.583333
 30
0.0
 10
0.000000
 20
3.583333
 30
0.0
 10
0.000000
 20
3.583333
 30
0.0
 10
0.000000
 20
3.583333
 30
0.0
 10
0.000000
 20
3.583333
 30
0.0
 10
0.000000
 20
3.583333
 30
0.0
 10
0.000000
 20
3.583333
 30
0.0
 10
0.000000
 20
3.583333
 30
0.0
 10
0.000000
 20
3.583333
 30
0.0
 10
0.000000
 20
3.583333
 30
0.0
 10
0.000000
 20
3.583333
 30
0.0
 10
0.000000
 20
3.583333
 30
0.0
 10
0.000000
 20
3.583333
 30
0.0
 10
0.000000
 20
3.583333
 30
0.0
 10
0.000000
 20
3.583333
 30
0.0
 10
0.000000
 20
3.583333
 30
0.0
 10
0.000000
 20
3.583333
 30
0.0
 10
0.000000
 20
3.583333
 30
0.0
 10
0.000000
 20
3.583333
 30
0.0
 10
0.000000
 20
3.583333
 30
0.0
 10
0.000000
 20
3.583333
 30
0.0
 10
0.000000
 20
3.583333
 30
0.0
 10
0.000000
 20
3.583333
 30
0.0
 10
0.000000
 20
3.583333
 30
0.0
 10
0.000000
 20
3.583333
 30
0.0
 10
0.000000
 20
3.583333
 30
0.0
 10
0.000000
 20
3.583333
 30
0.0
 10
0.000000
 20
3.583333
 30
0.0
 10
0.000000
 20
3.583333
 30
0.0
 10
0.000000
 20
3.583333
 30
0.0
 10
0.000000
 20
3.583333
 30
0.0
 10
0.000000
 20
3.583333
 30
0.0
 10
0.000000
 20
3.583333
 30
0.0
 10
0.000000
 20
3.583333
 30
0.0
 10
0.000000
 20
3.583333
 30
0.0
 10
0.000000
 20
3.583333
 30
0.0
 10
0.000000
 20
3.583333
 30
0.0
 10
0.000000
 20
3.583333
 30
0.0
 10
0.000000
 20
3.583333
 30
0.0
 10
0.000000
 20
3.583333
 30
0.0
 10
0.000000
 20
3.583333
 30
0.0
 10
0.000000
 20
3.583333
 30
0.0
 10
0.000000
 20
3.583333
 30
0.0
 10
0.000000
 20
3.583333
 30
0.0
 10
0.000000
 20
3.583333
 30
0.0
 10
0.000000
 20
3.583333
 30
0.0
 10
0.000000
 20
3.583333
 30
0.0
 10
0.000000
 20
3.583333
 30
0.0
 10
0.000000
 20
3.583333
 30
0.0
 10
0.000000
 20
3.583333
 30
0.0
 10
0.000000
 20
3.583333
 30
0.0
 10
0.000000
 20
3.583333
 30
0.0
 10
0.000000
 20
3.583333
 30
0.0
 10
0.000000
 20
3.583333
 30
0.0
 10
0.000000
 20
3.583333
 30
0.0
 10
0.000000
 20
3.583333
 30
0.0
 10
0.000000
 20
3.583333
 30
0.0
 10
0.000000
 20
3.583333
 30
0.0
 10
0.000000
 20
3.583333
 30
0.0
 10
0.000000
 20
3.583333
 30
0.0
 10
0.000000
 20
3.583333
 30
0.0
 10
0.000000
 20
3.583333
 30
0.0
 10
0.000000
 20
3.583333
 30
0.0
 10
0.000000
 20
3.583333
 30
0.0
 10
0.000000
 20
3.583333
 30
0.0
 10
0.000000
 20
3.583333
 30
0.0
 10
0.000000
 20
3.583333
 30
0.0
 10
0.000000
 20
3.583333
 30
0.0
 10
0.000000
 20
3.583333
 30
0.0
 10
0.000000
 20
3.583333
 30
0.0
 10
0.000000
 20
3.583333
 30
0.0
 10
0.000000
 20
3.583333
 30
0.0
 10
0.000000
 20
3.583333
 30
0.0
 10
0.000000
 20
3.583333
 30
0.0
 10
0.000000
 20
3.583333
 30
0.0
 10
0.000000
 20
3.583333
 30
0.0
 10
0.000000
 20
3.583333
 30
0.0
 10
0.000000
 20
3.583333
 30
0.0
 10
0.000000
 20
3.583333
 30
0.0
 10
0.000000
 20
3.583333
 30
0.0
 10
0.000000
 20
3.583333
 30
0.0
 10
0.000000
 20
3.583333
 30
0.0
 10
0.000000
 20
3.583333
 30
0.0
 10
0.000000
 20
3.583333
 30
0.0
 10
0.000000
 20
3.583333
 30
0.0
 10
0.000000
 20
3.583333
 30
0.0
 10
0.000000
 20
3.583333
 30
0.0
 10
0.000000
 20
3.583333
 30
0.0
 10
0.000000
 20
3.583333
 30
0.0
 10
0.000000
 20
3.583333
 30
0.0
 10
0.000000
 20
3.583333
 30
0.0
 10
0.000000
 20
3.583333
 30
0.0
 10
0.000000
 20
3.583333
 30
0.0
 10
0.000000
 20
3.583333
 30
0.0
 10
0.000000
 20
3.583333
 30
0.0
 10
0.000000
 20
3.583333
 30
0.0
 10
0.000000
 20
3.583333
 30
0.0
 10
0.000000
 20
3.583333
 30
0.0
 10
0.000000
 20
3.583333
 30
0.0
 10
0.000000
 20
3.583333
 30
0.0
 10
0.000000
 20
3.583333
 30
0.0
 10
0.000000
 20
3.583333
 30
0.0
 10
0.000000
 20
3.583333
 30
0.0
 10
0.000000
 20
3.583333
 30
0.0
 10
0.000000
 20
3.583333
 30
0.0
 10
0.000000
 20
3.583333
 30
0.0
 10
0.000000
 20
3.583333
 30
0.0
 10
0.000000
 20
3.583333
 30
0.0
 10
0.000000
 20
3.583333
 30
0.0
 10
0.000000
 20
3.583333
 30
0.0
 10
0.000000
 20
3.583333
 30
0.0
 10
0.000000
 20
3.583333
 30
0.0
 10
0.000000
 20
3.583333
 30
0.0
 10
0.000000
 20
3.583333
 30
0.0
 10
0.000000
 20
3.583333
 30
0.0
 10
0.000000
 20
3.583333
 30
0.0
 10
0.000000
 20
3.583333
 30
0.0
 10
0.000000
 20
3.583333
 30
0.0
 10
0.000000
 20
3.583333
 30
0.0
 10
0.000000
 20
3.583333
 30
0.0
 10
0.000000
 20
3.583333
 30
0.0
 10
0.000000
 20
3.583333
 30
0.0
 10
0.000000
 20
3.583333
 30
0.0
 10
0.000000
 20
3.583333
 30
0.0
 10
0.000000
 20
3.583333
 30
0.0
 10
0.000000
 20
3.583333
 30
0.0
 10
0.000000
 20
3.583333
 30
0.0
 10
0.000000
 20
3.583333
 30
0.0
 10
0.000000
 20
3.583333
 30
0.0
 10
0.000000
 20
3.583333
 30
0.0
 10
0.000000
 20
3.583333
 30
0.0
 10
0.000000
 20
3.583333
 30
0.0
 10
0.000000
 20
3.583333
 30
0.0
 10
0.000000
 20
3.583333
 30
0.0
 10
0.000000
 20
3.583333
 30
0.0
 10
0.000000
 20
3.583333
 30
0.0
 10
0.000000
 20
3.583333
 30
0.0
 10
0.000000
 20
3.583333
 30
0.0
 10
0.000000
 20
3.583333
 30
0.0
 10
0.000000
 20
3.583333
 30
0.0
 10
0.000000
 20
3.583333
 30
0.0
 10
0.000000
 20
3.583333
 30
0.0
 10
0.000000
 20
3.583333
 30
0.0
 10
0.000000
 20
3.583333
 30
0.0
 10
0.000000
 20
3.583333
 30
0.0
 10
0.000000
 20
3.583333
 30
0.0
 10
0.000000
 20
3.583333
 30
0.0
 10
0.000000
 20
3.583333
 30
0.0
 10
0.000000
 20
3.583333
 30
0.0
 10
0.000000
 20
3.583333
 30
0.0
 10
0.000000
 20
3.583333
 30
0.0
 10
0.000000
 20
3.583333
 30
0.0
 10
0.000000
 20
3.583333
 30
0.0
 10
0.000000
 20
3.583333
 30
0.0
 10
0.000000
 20
3.583333
 30
0.0
 10
0.000000
 20
3.583333
 30
0.0
 10
0.000000
 20
3.583333
 30
0.0
 10
0.000000
 20
3.583333
 30
0.0
 10
0.000000
 20
3.583333
 30
0.0
 10
0.000000
 20
3.583333
 30
0.0
 10
0.000000
 20
3.583333
 30
0.0
 10
0.000000
 20
3.583333
 30
0.0
 10
0.000000
 20
3.583333
 30
0.0
 10
0.000000
 20
3.583333
 30
0.0
 10
0.000000
 20
3.583333
 30
0.0
 10
0.000000
 20
3.583333
 30
0.0
 10
0.000000
 20
3.583333
 30
0.0
 10
0.000000
 20
3.583333
 30
0.0
 10
0.000000
 20
3.583333
 30
0.0
 10
0.000000
 20
3.583333
 30
0.0
 10
0.000000
 20
3.583333
 30
0.0
 10
0.000000
 20
3.583333
 30
0.0
 10
0.000000
 20
3.583333
 30
0.0
 10
0.000000
 20
3.583333
 30
0.0
 10
0.000000
 20
3.583333
 30
0.0
 10
0.000000
 20
3.583333
 30
0.0
 10
0.000000
 20
3.583333
 30
0.0
 10
0.000000
 20
3.583333
 30
0.0
 10
0.000000
 20
3.583333
 30
0.0
 10
0.000000
 20
3.583333
 30
0.0
 10
0.000000
 20
3.583333
 30
0.0
 10
0.000000
 20
3.583333
 30
0.0
 10
0.000000
 20
3.583333
 30
0.0
 10
0.000000
 20
3.583333
 30
0.0
 10
0.000000
 20
3.583333
 30
0.0
 10
0.000000
 20
3.583333
 30
0.0
 10
0.000000
 20
3.583333
 30
0.0
 10
0.000000
 20
3.583333
 30
0.0
 10
0.000000
 20
3.583333
 30
0.0
 10
0.000000
 20
3.583333
 30
0.0
 10
0.000000
 20
3.583333
 30
0.0
 10
0.000000
 20
3.583333
 30
0.0
 10
0.000000
 20
3.583333
 30
0.0
 10
0.000000
 20
3.583333
 30
0.0
 10
0.000000
 20
3.583333
 30
0.0
 10
0.000000
 20
3.583333
 30
0.0
 10
0.000000
 20
3.583333
 30
0.0
 10
0.000000
 20
3.583333
 30
0.0
 10
0.000000
 20
3.583333
 30
0.0
 10
0.000000
 20
3.583333
 30
0.0
 10
0.000000
 20
3.583333
 30
0.0
 10
0.000000
 20
3.583333
 30
0.0
 10
0.000000
 20
3.583333
 30
0.0
 10
0.000000
 20
3.583333
 30
0.0
 10
0.000000
 20
3.583333
 30
0.0
 10
0.000000
 20
3.583333
 30
0.0
 10
0.000000
 20
3.583333
 30
0.0
 10
0.000000
 20
3.583333
 30
0.0
 10
0.000000
 20
3.583333
 30
0.0
 10
0.000000
 20
3.583333
 30
0.0
 10
0.000000
 20
3.583333
 30
0.0
 10
0.000000
 20
3.583333
 30
0.0
 10
0.000000
 20
3.583333
 30
0.0
 10
0.000000
 20
3.583333
 30
0.0
 10
0.000000
 20
3.583333
 30
0.0
 10
0.000000
 20
3.583333
 30
0.0
 10
0.000000
 20
3.583333
 30
0.0
 10
0.000000
 20
3.583333
 30
0.0
 10
0.000000
 20
3.583333
 30
0.0
 10
0.000000
 20
3.583333
 30
0.0
 10
0.000000
 20
3.583333
 30
0.0
 10
0.000000
 20
3.583333
 30
0.0
 10
0.000000
 20
3.583333
 30
0.0
 10
0.000000
 20
3.583333
 30
0.0
 10
0.000000
 20
3.583333
 30
0.0
 10
0.000000
 20
3.583333
 30
0.0
 10
0.000000
 20
3.583333
 30
0.0
 10
0.000000
 20
3.583333
 30
0.0
 10
0.000000
 20
3.583333
 30
0.0
 10
0.000000
 20
3.583333
 30
0.0
 10
0.000000
 20
3.583333
 30
0.0
 10
0.000000
 20
3.583333
 30
0.0
 10
0.000000
 20
3.583333
 30
0.0
 10
0.000000
 20
3.583333
 30
0.0
 10
0.000000
 20
3.583333
 30
0.0
 10
0.000000
 20
3.583333
 30
0.0
 10
0.000000
 20
3.583333
 30
0.0
 10
0.000000
 20
3.583333
 30
0.0
 10
0.000000
 20
3.583333
 30
0.0
 10
0.000000
 20
3.583333
 30
0.0
 10
0.000000
 20
3.583333
 30
0.0
 10
0.000000
 20
3.583333
 30
0.0
 10
0.000000
 20
3.583333
 30
0.0
 10
0.000000
 20
3.583333
 30
0.0
 10
0.000000
 20
3.583333
 30
0.0
 10
0.000000
 20
3.583333
 30
0.0
 10
0.000000
 20
3.583333
 30
0.0
 10
0.000000
 20
3.583333
 30
0.0
 10
0.000000
 20
3.583333
 30
0.0
 10
0.000000
 20
3.583333
 30
0.0
 10
0.000000
 20
3.583333
 30
0.0
 10
0.000000
 20
3.583333
 30
0.0
 10
0.000000
 20
3.583333
 30
0.0
 10
0.000000
 20
3.583333
 30
0.0
 10
0.000000
 20
3.583333
 30
0.0
 10
0.000000
 20
3.583333
 30
0.0
 10
0.000000
 20
3.583333
 30
0.0
 10
0.000000
 20
3.583333
 30
0.0
 10
0.000000
 20
3.583333
 30
0.0
 10
0.000000
 20
3.583333
 30
0.0
 10
0.000000
 20
3.583333
 30
0.0
 10
0.000000
 20
3.583333
 30
0.0
 10
0.000000
 20
3.583333
 30
0.0
 10
0.000000
 20
3.583333
 30
0.0
 10
0.000000
 20
3.583333
 30
0.0
 10
0.000000
 20
3.583333
 30
0.0
 10
0.000000
 20
3.583333
 30
0.0
 10
0.000000
 20
3.583333
 30
0.0
 10
0.000000
 20
3.583333
 30
0.0
 10
0.000000
 20
3.583333
 30
0.0
 10
0.000000
 20
3.583333
 30
0.0
 10
0.000000
 20
3.583333
 30
0.0
 10
0.000000
 20
3.583333
 30
0.0
 10
0.000000
 20
3.583333
 30
0.0
 10
0.000000
 20
3.583333
 30
0.0
 10
0.000000
 20
3.583333
 30
0.0
 10
0.000000
 20
3.583333
 30
0.0
 10
0.000000
 20
3.583333
 30
0.0
 10
0.000000
 20
3.583333
 30
0.0
 10
0.000000
 20
3.583333
 30
0.0
 10
0.000000
 20
3.583333
 30
0.0
 10
0.000000
 20
3.583333
 30
0.0
 10
0.000000
 20
3.583333
 30
0.0
 10
0.000000
 20
3.583333
 30
0.0
 10
0.000000
 20
3.583333
 30
0.0
 10
0.000000
 20
3.583333
 30
0.0
 10
0.000000
 20
3.583333
 30
0.0
 10
0.000000
 20
3.583333
 30
0.0
 10
0.000000
 20
3.583333
 30
0.0
 10
0.000000
 20
3.583333
 30
0.0
 10
0.000000
 20
3.583333
 30
0.0
 10
0.000000
 20
3.583333
 30
0.0
 10
0.000000
 20
3.583333
 30
0.0
 10
0.000000
 20
3.583333
 30
0.0
 10
0.000000
 20
3.583333
 30
0.0
 10
0.000000
 20
3.583333
 30
0.0
 10
0.000000
 20
3.583333
 30
0.0
 10
0.000000
 20
3.583333
 30
0.0
 10
0.000000
 20
3.583333
 30
0.0
 10
0.000000
 20
3.583333
 30
0.0
 10
0.000000
 20
3.583333
 30
0.0
 10
0.000000
 20
3.583333
 30
0.0
 10
0.000000
 20
3.583333
 30
0.0
 10
0.000000
 20
3.583333
 30
0.0
 10
0.000000
 20
3.583333
 30
0.0
 10
0.000000
 20
3.583333
 30
0.0
 10
0.000000
 20
3.583333
 30
0.0
 10
0.000000
 20
3.583333
 30
0.0
 10
0.000000
 20
3.583333
 30
0.0
 10
0.000000
 20
3.583333
 30
0.0
 10
0.000000
 20
3.583333
 30
0.0
 10
0.000000
 20
3.583333
 30
0.0
 10
0.000000
 20
3.583333
 30
0.0
  0
ENDSEC
  0
SECTION
  2
OBJECTS
  0
DICTIONARY
  5
C
330
0
100
AcDbDictionary
  3
ACAD_GROUP
350
D
  3
ACAD_MLINESTYLE
350
17
  0
DICTIONARY
  5
D
330
C
100
AcDbDictionary
  0
DICTIONARY
  5
1A
330
C
100
AcDbDictionary
  0
DICTIONARY
  5
17
330
C
100
AcDbDictionary
  3
STANDARD
350
18
  0
DICTIONARY
  5
19
330
C
100
AcDbDictionary
  0
ENDSEC
  0
EOF
